Vamos, Pá Brutos - Se me fue una noche fría

lunes, 18 de diciembre de 2017

Se Fue Una Noche Fria Vamos Pa' Brutos




Vamos, Pá Brutos - Una noche fría
Acordes usados:
e|--0--|--0--|--0--|--1--|--0--|
B|--1--|--0--|--0--|--3--|--1--|
G|--0--|--1--|--2--|--2--|--2--|
D|--2--|--2--|--3--|--0--|--2--|
A|--3--|--2--|--0--|--X--|--0--|
E|--3--|--0--|--X--|--X--|--X--|
    C     E   Do7  Rem Lam
Intro se repite dos veces:
Do   Mi  Rem
Estrofa 1:
C         E                   Do7
Se me fue, una noche fria
C              E             Do7
Cuando partí, mi corazón...
E                  C
Con ella se quedó...
C                      E                        Do7
No quería mirar atrás, Algo en mi moría...
C          E                             Do7
Era el adiós, para volver a comenzar...
Intro se repite dos veces:
Do   Mi  Rem
Estrofa 2:
C                      E
Y ahora voy caminando
                           Do7
Mientras trato de pensar...
C
Que se me fue...
E                       Do7
Para volver a comenzar...
C                           E
Preguntándome el porque...
Do7                                 C
Si con ella me sentía yo muy bien...
Estrofa 3:
C
Muchas se prueban
             Am         C
Y saben igual no llenan...
C                    Am
Y daría lo que fuera...
E                      C
Por una que mi alma llena...
E                      Do7
Y que no puedo tener...
Intro se repite dos veces:
Do   Mi  Rem
(Final) Estrofa 4:
C                          E
Voy tomando una cerveza
C                            E                   Do7
Recordando aquel momento en que la ví...
C                      E                Do7
Y con tristeza, me toco dejarla ir...
Intro Arpegiado:
e|--0------------0----------|--0-----------0-----------|--1-----------1---------|
B|--1--------1-----1-------|--0--------0-----0-------|--3--------3-----3-----|
G|--0-----0------------0---|--1-----1----------1-----|--2-----2----------2---|
D|--4--4--------------------|--2--2--------------------|--0--0------------------|
A|--3-----------------------|---2------------------------|--0---------------------|
E|--0-----------------------|---0------------------------|--0---------------------|
     C                          E                         Rem
Se repite una vez y termina en un C... lml
Frase Mnemotécnica de la canción:
Aprende a usarla:
• Ix2,   E1;  Ix2,   E2,  E3; Ix2,  EFn  I.Arp. C, Fin. lml
Estructura de la canción:
• Intro x 2
• Estrofa
• Intro x 2
• Estrofa 2
• Estrofa 3
• Intro x 2
• Estrofa final
• Intro arpegiado x 2
• Termina en un C suave.
Acordes hechos por: Vamos, Pá Brutos
Blogger, Twitter, Facebook, Instagram, Inshaka,
Vamos Pá Brutos Grupo de Facebook

1 comentario: